[NEW] Chords Kunci Gitar Superman Is Dead Diposable lies [tab] Lirik Terjemahan Arti Lagu

intro lirik terjemahan arti indonesia Superman Is Dead Diposable lies [tab] download mp3  : 

e|----------------------------------------------------------------------------------|
B|----------------------------------------------------------------------------------|
G|----------------------------------------------------------------------------------|
D|--------------------------------------------------------------------------------2-|
A|-3h5-/7-3-3-3--/5-3-2-2-2--/3-2---------------3h5-/7-3-3-3--/5-3-2-2-2--/3-2------|
E|--------------------------------5-5-5--5-5-5----------------------------------5---|

Interlude chords Superman Is Dead Diposable lies [tab] lyrics :

e|----------------------------------------------------------|
B|----------------------------------------------------------|
G|--------------------------------------------5---5-7-5-5-5-|
D|-----------------------------------5---5-/7---7-----------|
A|-3-5-/7-2-3-/5---2-3--3-2-----5-/7---7--------------------|
E|---------------5----------5-3-----------------------------|

e|------------------------------------------------------------------|
B|------------------------------------------------------------------|
G|-/10-10-10-9-9-9-9h10-9-7-7-7-7h9-7-5-5-5-----5-----5-----5-----5-|
D|------------------------------------------5h7---5h7---5h7---5h7---|
A|------------------------------------------------------------------|
E|------------------------------------------------------------------|

e|-----------------------------------------------------------|
B|-----------------------------------------------------------|
G|-----5---5------5---5------5---5-7-5-/9-9-9-7-5---7-7-/9-7-|
D|-5h7---7----5h7---7----5h7---7------------------7----------|
A|-----------------------------------------------------------|
E|-----------------------------------------------------------|

e|------8--8-7-5-------5--5--------------------------------------------------|
B|-/8-8----------8-5-8------8-6-5--5-------5-------5------6-5---5------------|
G|-----------------------------------7-5-7---7-5-7---7-5------7---7-5-4h5-5~-|
D|---------------------------------------------------------------------------|
A|---------------------------------------------------------------------------|
E|---------------------------------------------------------------------------|